ISO-10303-21;
HEADER;
/* Generated by software containing ST-Developer
 * from STEP Tools, Inc. (www.steptools.com) 
 */

FILE_DESCRIPTION(
/* description */ (''),
/* implementation_level */ '2;1');

FILE_NAME(
/* name */ 'Upper Mold Half.step',
/* time_stamp */ '2024-01-18T02:12:31-07:00',
/* author */ (''),
/* organization */ (''),
/* preprocessor_version */ 'ST-DEVELOPER v20',
/* originating_system */ 'Autodesk Translation Framework v12.14.0.127',

/* authorisation */ '');

FILE_SCHEMA (('AUTOMOTIVE_DESIGN { 1 0 10303 214 3 1 1 }'));
ENDSEC;

DATA;
#10=MECHANICAL_DESIGN_GEOMETRIC_PRESENTATION_REPRESENTATION('',(#15,#16),
#605);
#11=SHAPE_REPRESENTATION_RELATIONSHIP('SRR','None',#612,#12);
#12=ADVANCED_BREP_SHAPE_REPRESENTATION('',(#13),#604);
#13=MANIFOLD_SOLID_BREP('Body1',#345);
#14=SPHERICAL_SURFACE('',#392,12.7);
#15=STYLED_ITEM('',(#623),#341);
#16=STYLED_ITEM('',(#622),#13);
#17=CONICAL_SURFACE('',#388,3.373738709727,1.221730476396);
#18=CONICAL_SURFACE('',#396,1.20132939214,0.02617993877991);
#19=CYLINDRICAL_SURFACE('',#369,5.);
#20=CYLINDRICAL_SURFACE('',#371,5.);
#21=CYLINDRICAL_SURFACE('',#379,5.);
#22=CYLINDRICAL_SURFACE('',#380,5.);
#23=CYLINDRICAL_SURFACE('',#382,5.);
#24=CYLINDRICAL_SURFACE('',#386,5.);
#25=CYLINDRICAL_SURFACE('',#390,5.);
#26=FACE_BOUND('',#71,.T.);
#27=FACE_BOUND('',#72,.T.);
#28=FACE_BOUND('',#73,.T.);
#29=FACE_BOUND('',#77,.T.);
#30=CIRCLE('',#361,5.);
#31=CIRCLE('',#362,5.);
#32=CIRCLE('',#363,5.);
#33=CIRCLE('',#364,5.);
#34=CIRCLE('',#365,5.);
#35=CIRCLE('',#366,5.);
#36=CIRCLE('',#367,3.373738709727);
#37=CIRCLE('',#368,5.);
#38=CIRCLE('',#370,5.);
#39=CIRCLE('',#372,5.);
#40=CIRCLE('',#374,5.);
#41=CIRCLE('',#375,5.);
#42=CIRCLE('',#376,7.5);
#43=CIRCLE('',#383,5.);
#44=CIRCLE('',#387,5.);
#45=CIRCLE('',#389,2.);
#46=CIRCLE('',#391,5.);
#47=CIRCLE('',#393,1.263862770662);
#48=CIRCLE('',#394,12.7);
#49=FACE_OUTER_BOUND('',#69,.T.);
#50=FACE_OUTER_BOUND('',#70,.T.);
#51=FACE_OUTER_BOUND('',#74,.T.);
#52=FACE_OUTER_BOUND('',#75,.T.);
#53=FACE_OUTER_BOUND('',#76,.T.);
#54=FACE_OUTER_BOUND('',#78,.T.);
#55=FACE_OUTER_BOUND('',#79,.T.);
#56=FACE_OUTER_BOUND('',#80,.T.);
#57=FACE_OUTER_BOUND('',#81,.T.);
#58=FACE_OUTER_BOUND('',#82,.T.);
#59=FACE_OUTER_BOUND('',#83,.T.);
#60=FACE_OUTER_BOUND('',#84,.T.);
#61=FACE_OUTER_BOUND('',#85,.T.);
#62=FACE_OUTER_BOUND('',#86,.T.);
#63=FACE_OUTER_BOUND('',#87,.T.);
#64=FACE_OUTER_BOUND('',#88,.T.);
#65=FACE_OUTER_BOUND('',#89,.T.);
#66=FACE_OUTER_BOUND('',#90,.T.);
#67=FACE_OUTER_BOUND('',#91,.T.);
#68=FACE_OUTER_BOUND('',#92,.T.);
#69=EDGE_LOOP('',(#223,#224,#225,#226));
#70=EDGE_LOOP('',(#227,#228,#229,#230,#231,#232,#233,#234));
#71=EDGE_LOOP('',(#235,#236,#237,#238));
#72=EDGE_LOOP('',(#239));
#73=EDGE_LOOP('',(#240));
#74=EDGE_LOOP('',(#241,#242,#243,#244));
#75=EDGE_LOOP('',(#245,#246,#247,#248));
#76=EDGE_LOOP('',(#249,#250,#251,#252,#253,#254,#255,#256));
#77=EDGE_LOOP('',(#257));
#78=EDGE_LOOP('',(#258,#259,#260,#261));
#79=EDGE_LOOP('',(#262,#263,#264,#265));
#80=EDGE_LOOP('',(#266,#267,#268,#269));
#81=EDGE_LOOP('',(#270,#271,#272,#273));
#82=EDGE_LOOP('',(#274,#275,#276,#277));
#83=EDGE_LOOP('',(#278,#279,#280,#281));
#84=EDGE_LOOP('',(#282,#283,#284,#285));
#85=EDGE_LOOP('',(#286,#287,#288,#289));
#86=EDGE_LOOP('',(#290,#291,#292,#293));
#87=EDGE_LOOP('',(#294,#295,#296,#297));
#88=EDGE_LOOP('',(#298,#299,#300,#301));
#89=EDGE_LOOP('',(#302,#303,#304,#305));
#90=EDGE_LOOP('',(#306,#307,#308,#309));
#91=EDGE_LOOP('',(#310,#311,#312,#313));
#92=EDGE_LOOP('',(#314));
#93=LINE('',#509,#120);
#94=LINE('',#511,#121);
#95=LINE('',#513,#122);
#96=LINE('',#514,#123);
#97=LINE('',#519,#124);
#98=LINE('',#523,#125);
#99=LINE('',#527,#126);
#100=LINE('',#533,#127);
#101=LINE('',#536,#128);
#102=LINE('',#544,#129);
#103=LINE('',#547,#130);
#104=LINE('',#551,#131);
#105=LINE('',#555,#132);
#106=LINE('',#558,#133);
#107=LINE('',#562,#134);
#108=LINE('',#564,#135);
#109=LINE('',#566,#136);
#110=LINE('',#568,#137);
#111=LINE('',#572,#138);
#112=LINE('',#575,#139);
#113=LINE('',#578,#140);
#114=LINE('',#579,#141);
#115=LINE('',#582,#142);
#116=LINE('',#583,#143);
#117=LINE('',#588,#144);
#118=LINE('',#593,#145);
#119=LINE('',#600,#146);
#120=VECTOR('',#402,1.);
#121=VECTOR('',#403,1.);
#122=VECTOR('',#404,1.);
#123=VECTOR('',#405,1.);
#124=VECTOR('',#410,1.);
#125=VECTOR('',#413,1.);
#126=VECTOR('',#416,1.);
#127=VECTOR('',#421,1.);
#128=VECTOR('',#424,1.);
#129=VECTOR('',#433,1.);
#130=VECTOR('',#436,1.);
#131=VECTOR('',#441,1.);
#132=VECTOR('',#444,1.);
#133=VECTOR('',#447,1.);
#134=VECTOR('',#452,1.);
#135=VECTOR('',#455,1.);
#136=VECTOR('',#458,1.);
#137=VECTOR('',#461,1.);
#138=VECTOR('',#466,1.);
#139=VECTOR('',#469,1.);
#140=VECTOR('',#472,1.);
#141=VECTOR('',#473,1.);
#142=VECTOR('',#476,1.);
#143=VECTOR('',#477,1.);
#144=VECTOR('',#484,3.373738709727);
#145=VECTOR('',#491,5.);
#146=VECTOR('',#502,1.20132939214);
#147=VERTEX_POINT('',#507);
#148=VERTEX_POINT('',#508);
#149=VERTEX_POINT('',#510);
#150=VERTEX_POINT('',#512);
#151=VERTEX_POINT('',#516);
#152=VERTEX_POINT('',#518);
#153=VERTEX_POINT('',#520);
#154=VERTEX_POINT('',#522);
#155=VERTEX_POINT('',#524);
#156=VERTEX_POINT('',#526);
#157=VERTEX_POINT('',#529);
#158=VERTEX_POINT('',#530);
#159=VERTEX_POINT('',#532);
#160=VERTEX_POINT('',#534);
#161=VERTEX_POINT('',#537);
#162=VERTEX_POINT('',#539);
#163=VERTEX_POINT('',#542);
#164=VERTEX_POINT('',#546);
#165=VERTEX_POINT('',#550);
#166=VERTEX_POINT('',#552);
#167=VERTEX_POINT('',#554);
#168=VERTEX_POINT('',#556);
#169=VERTEX_POINT('',#559);
#170=VERTEX_POINT('',#571);
#171=VERTEX_POINT('',#573);
#172=VERTEX_POINT('',#577);
#173=VERTEX_POINT('',#581);
#174=VERTEX_POINT('',#587);
#175=VERTEX_POINT('',#591);
#176=VERTEX_POINT('',#595);
#177=EDGE_CURVE('',#147,#148,#93,.T.);
#178=EDGE_CURVE('',#148,#149,#94,.T.);
#179=EDGE_CURVE('',#150,#149,#95,.T.);
#180=EDGE_CURVE('',#147,#150,#96,.T.);
#181=EDGE_CURVE('',#147,#151,#30,.T.);
#182=EDGE_CURVE('',#152,#151,#97,.T.);
#183=EDGE_CURVE('',#152,#153,#31,.T.);
#184=EDGE_CURVE('',#154,#153,#98,.T.);
#185=EDGE_CURVE('',#155,#154,#32,.T.);
#186=EDGE_CURVE('',#156,#155,#99,.T.);
#187=EDGE_CURVE('',#148,#156,#33,.T.);
#188=EDGE_CURVE('',#157,#158,#34,.T.);
#189=EDGE_CURVE('',#158,#159,#100,.T.);
#190=EDGE_CURVE('',#159,#160,#35,.T.);
#191=EDGE_CURVE('',#160,#157,#101,.T.);
#192=EDGE_CURVE('',#161,#161,#36,.T.);
#193=EDGE_CURVE('',#162,#162,#37,.T.);
#194=EDGE_CURVE('',#150,#163,#38,.T.);
#195=EDGE_CURVE('',#151,#163,#102,.T.);
#196=EDGE_CURVE('',#156,#164,#103,.T.);
#197=EDGE_CURVE('',#149,#164,#39,.T.);
#198=EDGE_CURVE('',#164,#165,#104,.T.);
#199=EDGE_CURVE('',#165,#166,#40,.T.);
#200=EDGE_CURVE('',#166,#167,#105,.T.);
#201=EDGE_CURVE('',#168,#167,#41,.T.);
#202=EDGE_CURVE('',#168,#163,#106,.T.);
#203=EDGE_CURVE('',#169,#169,#42,.T.);
#204=EDGE_CURVE('',#152,#168,#107,.T.);
#205=EDGE_CURVE('',#155,#165,#108,.T.);
#206=EDGE_CURVE('',#153,#167,#109,.T.);
#207=EDGE_CURVE('',#154,#166,#110,.T.);
#208=EDGE_CURVE('',#157,#170,#111,.T.);
#209=EDGE_CURVE('',#170,#171,#43,.T.);
#210=EDGE_CURVE('',#158,#171,#112,.T.);
#211=EDGE_CURVE('',#160,#172,#113,.T.);
#212=EDGE_CURVE('',#172,#170,#114,.T.);
#213=EDGE_CURVE('',#171,#173,#115,.T.);
#214=EDGE_CURVE('',#159,#173,#116,.T.);
#215=EDGE_CURVE('',#173,#172,#44,.T.);
#216=EDGE_CURVE('',#161,#174,#117,.T.);
#217=EDGE_CURVE('',#174,#174,#45,.T.);
#218=EDGE_CURVE('',#175,#175,#46,.T.);
#219=EDGE_CURVE('',#175,#162,#118,.T.);
#220=EDGE_CURVE('',#176,#176,#47,.T.);
#221=EDGE_CURVE('',#176,#169,#48,.T.);
#222=EDGE_CURVE('',#176,#174,#119,.T.);
#223=ORIENTED_EDGE('',*,*,#177,.T.);
#224=ORIENTED_EDGE('',*,*,#178,.T.);
#225=ORIENTED_EDGE('',*,*,#179,.F.);
#226=ORIENTED_EDGE('',*,*,#180,.F.);
#227=ORIENTED_EDGE('',*,*,#177,.F.);
#228=ORIENTED_EDGE('',*,*,#181,.T.);
#229=ORIENTED_EDGE('',*,*,#182,.F.);
#230=ORIENTED_EDGE('',*,*,#183,.T.);
#231=ORIENTED_EDGE('',*,*,#184,.F.);
#232=ORIENTED_EDGE('',*,*,#185,.F.);
#233=ORIENTED_EDGE('',*,*,#186,.F.);
#234=ORIENTED_EDGE('',*,*,#187,.F.);
#235=ORIENTED_EDGE('',*,*,#188,.T.);
#236=ORIENTED_EDGE('',*,*,#189,.T.);
#237=ORIENTED_EDGE('',*,*,#190,.T.);
#238=ORIENTED_EDGE('',*,*,#191,.T.);
#239=ORIENTED_EDGE('',*,*,#192,.F.);
#240=ORIENTED_EDGE('',*,*,#193,.T.);
#241=ORIENTED_EDGE('',*,*,#181,.F.);
#242=ORIENTED_EDGE('',*,*,#180,.T.);
#243=ORIENTED_EDGE('',*,*,#194,.T.);
#244=ORIENTED_EDGE('',*,*,#195,.F.);
#245=ORIENTED_EDGE('',*,*,#187,.T.);
#246=ORIENTED_EDGE('',*,*,#196,.T.);
#247=ORIENTED_EDGE('',*,*,#197,.F.);
#248=ORIENTED_EDGE('',*,*,#178,.F.);
#249=ORIENTED_EDGE('',*,*,#179,.T.);
#250=ORIENTED_EDGE('',*,*,#197,.T.);
#251=ORIENTED_EDGE('',*,*,#198,.T.);
#252=ORIENTED_EDGE('',*,*,#199,.T.);
#253=ORIENTED_EDGE('',*,*,#200,.T.);
#254=ORIENTED_EDGE('',*,*,#201,.F.);
#255=ORIENTED_EDGE('',*,*,#202,.T.);
#256=ORIENTED_EDGE('',*,*,#194,.F.);
#257=ORIENTED_EDGE('',*,*,#203,.F.);
#258=ORIENTED_EDGE('',*,*,#182,.T.);
#259=ORIENTED_EDGE('',*,*,#195,.T.);
#260=ORIENTED_EDGE('',*,*,#202,.F.);
#261=ORIENTED_EDGE('',*,*,#204,.F.);
#262=ORIENTED_EDGE('',*,*,#186,.T.);
#263=ORIENTED_EDGE('',*,*,#205,.T.);
#264=ORIENTED_EDGE('',*,*,#198,.F.);
#265=ORIENTED_EDGE('',*,*,#196,.F.);
#266=ORIENTED_EDGE('',*,*,#183,.F.);
#267=ORIENTED_EDGE('',*,*,#204,.T.);
#268=ORIENTED_EDGE('',*,*,#201,.T.);
#269=ORIENTED_EDGE('',*,*,#206,.F.);
#270=ORIENTED_EDGE('',*,*,#185,.T.);
#271=ORIENTED_EDGE('',*,*,#207,.T.);
#272=ORIENTED_EDGE('',*,*,#199,.F.);
#273=ORIENTED_EDGE('',*,*,#205,.F.);
#274=ORIENTED_EDGE('',*,*,#184,.T.);
#275=ORIENTED_EDGE('',*,*,#206,.T.);
#276=ORIENTED_EDGE('',*,*,#200,.F.);
#277=ORIENTED_EDGE('',*,*,#207,.F.);
#278=ORIENTED_EDGE('',*,*,#208,.T.);
#279=ORIENTED_EDGE('',*,*,#209,.T.);
#280=ORIENTED_EDGE('',*,*,#210,.F.);
#281=ORIENTED_EDGE('',*,*,#188,.F.);
#282=ORIENTED_EDGE('',*,*,#211,.T.);
#283=ORIENTED_EDGE('',*,*,#212,.T.);
#284=ORIENTED_EDGE('',*,*,#208,.F.);
#285=ORIENTED_EDGE('',*,*,#191,.F.);
#286=ORIENTED_EDGE('',*,*,#210,.T.);
#287=ORIENTED_EDGE('',*,*,#213,.T.);
#288=ORIENTED_EDGE('',*,*,#214,.F.);
#289=ORIENTED_EDGE('',*,*,#189,.F.);
#290=ORIENTED_EDGE('',*,*,#214,.T.);
#291=ORIENTED_EDGE('',*,*,#215,.T.);
#292=ORIENTED_EDGE('',*,*,#211,.F.);
#293=ORIENTED_EDGE('',*,*,#190,.F.);
#294=ORIENTED_EDGE('',*,*,#192,.T.);
#295=ORIENTED_EDGE('',*,*,#216,.T.);
#296=ORIENTED_EDGE('',*,*,#217,.F.);
#297=ORIENTED_EDGE('',*,*,#216,.F.);
#298=ORIENTED_EDGE('',*,*,#218,.T.);
#299=ORIENTED_EDGE('',*,*,#219,.T.);
#300=ORIENTED_EDGE('',*,*,#193,.F.);
#301=ORIENTED_EDGE('',*,*,#219,.F.);
#302=ORIENTED_EDGE('',*,*,#220,.T.);
#303=ORIENTED_EDGE('',*,*,#221,.T.);
#304=ORIENTED_EDGE('',*,*,#203,.T.);
#305=ORIENTED_EDGE('',*,*,#221,.F.);
#306=ORIENTED_EDGE('',*,*,#209,.F.);
#307=ORIENTED_EDGE('',*,*,#212,.F.);
#308=ORIENTED_EDGE('',*,*,#215,.F.);
#309=ORIENTED_EDGE('',*,*,#213,.F.);
#310=ORIENTED_EDGE('',*,*,#220,.F.);
#311=ORIENTED_EDGE('',*,*,#222,.T.);
#312=ORIENTED_EDGE('',*,*,#217,.T.);
#313=ORIENTED_EDGE('',*,*,#222,.F.);
#314=ORIENTED_EDGE('',*,*,#218,.F.);
#315=PLANE('',#359);
#316=PLANE('',#360);
#317=PLANE('',#373);
#318=PLANE('',#377);
#319=PLANE('',#378);
#320=PLANE('',#381);
#321=PLANE('',#384);
#322=PLANE('',#385);
#323=PLANE('',#395);
#324=PLANE('',#397);
#325=ADVANCED_FACE('',(#49),#315,.F.);
#326=ADVANCED_FACE('',(#50,#26,#27,#28),#316,.F.);
#327=ADVANCED_FACE('',(#51),#19,.T.);
#328=ADVANCED_FACE('',(#52),#20,.T.);
#329=ADVANCED_FACE('',(#53,#29),#317,.T.);
#330=ADVANCED_FACE('',(#54),#318,.F.);
#331=ADVANCED_FACE('',(#55),#319,.F.);
#332=ADVANCED_FACE('',(#56),#21,.T.);
#333=ADVANCED_FACE('',(#57),#22,.T.);
#334=ADVANCED_FACE('',(#58),#320,.F.);
#335=ADVANCED_FACE('',(#59),#23,.F.);
#336=ADVANCED_FACE('',(#60),#321,.T.);
#337=ADVANCED_FACE('',(#61),#322,.T.);
#338=ADVANCED_FACE('',(#62),#24,.F.);
#339=ADVANCED_FACE('',(#63),#17,.T.);
#340=ADVANCED_FACE('',(#64),#25,.F.);
#341=ADVANCED_FACE('',(#65),#14,.F.);
#342=ADVANCED_FACE('',(#66),#323,.F.);
#343=ADVANCED_FACE('',(#67),#18,.F.);
#344=ADVANCED_FACE('',(#68),#324,.F.);
#345=CLOSED_SHELL('',(#325,#326,#327,#328,#329,#330,#331,#332,#333,#334,
#335,#336,#337,#338,#339,#340,#341,#342,#343,#344));
#346=DERIVED_UNIT_ELEMENT(#348,1.);
#347=DERIVED_UNIT_ELEMENT(#607,-3.);
#348=(
MASS_UNIT()
NAMED_UNIT(*)
SI_UNIT(.KILO.,.GRAM.)
);
#349=DERIVED_UNIT((#346,#347));
#350=MEASURE_REPRESENTATION_ITEM('density measure',
POSITIVE_RATIO_MEASURE(7850.),#349);
#351=PROPERTY_DEFINITION_REPRESENTATION(#356,#353);
#352=PROPERTY_DEFINITION_REPRESENTATION(#357,#354);
#353=REPRESENTATION('material name',(#355),#604);
#354=REPRESENTATION('density',(#350),#604);
#355=DESCRIPTIVE_REPRESENTATION_ITEM('Steel','Steel');
#356=PROPERTY_DEFINITION('material property','material name',#614);
#357=PROPERTY_DEFINITION('material property','density of part',#614);
#358=AXIS2_PLACEMENT_3D('',#505,#398,#399);
#359=AXIS2_PLACEMENT_3D('',#506,#400,#401);
#360=AXIS2_PLACEMENT_3D('',#515,#406,#407);
#361=AXIS2_PLACEMENT_3D('',#517,#408,#409);
#362=AXIS2_PLACEMENT_3D('',#521,#411,#412);
#363=AXIS2_PLACEMENT_3D('',#525,#414,#415);
#364=AXIS2_PLACEMENT_3D('',#528,#417,#418);
#365=AXIS2_PLACEMENT_3D('',#531,#419,#420);
#366=AXIS2_PLACEMENT_3D('',#535,#422,#423);
#367=AXIS2_PLACEMENT_3D('',#538,#425,#426);
#368=AXIS2_PLACEMENT_3D('',#540,#427,#428);
#369=AXIS2_PLACEMENT_3D('',#541,#429,#430);
#370=AXIS2_PLACEMENT_3D('',#543,#431,#432);
#371=AXIS2_PLACEMENT_3D('',#545,#434,#435);
#372=AXIS2_PLACEMENT_3D('',#548,#437,#438);
#373=AXIS2_PLACEMENT_3D('',#549,#439,#440);
#374=AXIS2_PLACEMENT_3D('',#553,#442,#443);
#375=AXIS2_PLACEMENT_3D('',#557,#445,#446);
#376=AXIS2_PLACEMENT_3D('',#560,#448,#449);
#377=AXIS2_PLACEMENT_3D('',#561,#450,#451);
#378=AXIS2_PLACEMENT_3D('',#563,#453,#454);
#379=AXIS2_PLACEMENT_3D('',#565,#456,#457);
#380=AXIS2_PLACEMENT_3D('',#567,#459,#460);
#381=AXIS2_PLACEMENT_3D('',#569,#462,#463);
#382=AXIS2_PLACEMENT_3D('',#570,#464,#465);
#383=AXIS2_PLACEMENT_3D('',#574,#467,#468);
#384=AXIS2_PLACEMENT_3D('',#576,#470,#471);
#385=AXIS2_PLACEMENT_3D('',#580,#474,#475);
#386=AXIS2_PLACEMENT_3D('',#584,#478,#479);
#387=AXIS2_PLACEMENT_3D('',#585,#480,#481);
#388=AXIS2_PLACEMENT_3D('',#586,#482,#483);
#389=AXIS2_PLACEMENT_3D('',#589,#485,#486);
#390=AXIS2_PLACEMENT_3D('',#590,#487,#488);
#391=AXIS2_PLACEMENT_3D('',#592,#489,#490);
#392=AXIS2_PLACEMENT_3D('',#594,#492,#493);
#393=AXIS2_PLACEMENT_3D('',#596,#494,#495);
#394=AXIS2_PLACEMENT_3D('',#597,#496,#497);
#395=AXIS2_PLACEMENT_3D('',#598,#498,#499);
#396=AXIS2_PLACEMENT_3D('',#599,#500,#501);
#397=AXIS2_PLACEMENT_3D('',#601,#503,#504);
#398=DIRECTION('axis',(0.,0.,1.));
#399=DIRECTION('refdir',(1.,0.,0.));
#400=DIRECTION('center_axis',(1.,0.,0.));
#401=DIRECTION('ref_axis',(0.,-1.,0.));
#402=DIRECTION('',(0.,-1.,0.));
#403=DIRECTION('',(0.,0.,1.));
#404=DIRECTION('',(0.,-1.,0.));
#405=DIRECTION('',(0.,0.,1.));
#406=DIRECTION('center_axis',(0.,0.,1.));
#407=DIRECTION('ref_axis',(1.,0.,0.));
#408=DIRECTION('center_axis',(0.,0.,-1.));
#409=DIRECTION('ref_axis',(0.,-1.,0.));
#410=DIRECTION('',(-1.,0.,0.));
#411=DIRECTION('center_axis',(0.,0.,-1.));
#412=DIRECTION('ref_axis',(0.,-1.,0.));
#413=DIRECTION('',(0.,1.,0.));
#414=DIRECTION('center_axis',(0.,0.,1.));
#415=DIRECTION('ref_axis',(0.,-1.,0.));
#416=DIRECTION('',(1.,0.,0.));
#417=DIRECTION('center_axis',(0.,0.,1.));
#418=DIRECTION('ref_axis',(0.,-1.,0.));
#419=DIRECTION('center_axis',(0.,0.,1.));
#420=DIRECTION('ref_axis',(1.,0.,0.));
#421=DIRECTION('',(1.,0.,0.));
#422=DIRECTION('center_axis',(0.,0.,1.));
#423=DIRECTION('ref_axis',(1.,0.,0.));
#424=DIRECTION('',(-1.,0.,0.));
#425=DIRECTION('center_axis',(0.,-2.22044604925E-16,-1.));
#426=DIRECTION('ref_axis',(1.,0.,0.));
#427=DIRECTION('center_axis',(0.,0.,1.));
#428=DIRECTION('ref_axis',(1.,0.,0.));
#429=DIRECTION('center_axis',(0.,0.,1.));
#430=DIRECTION('ref_axis',(-1.,0.,0.));
#431=DIRECTION('center_axis',(0.,0.,-1.));
#432=DIRECTION('ref_axis',(0.,-1.,0.));
#433=DIRECTION('',(0.,0.,1.));
#434=DIRECTION('center_axis',(0.,0.,1.));
#435=DIRECTION('ref_axis',(-1.,0.,0.));
#436=DIRECTION('',(0.,0.,1.));
#437=DIRECTION('center_axis',(0.,0.,1.));
#438=DIRECTION('ref_axis',(0.,-1.,0.));
#439=DIRECTION('center_axis',(0.,0.,1.));
#440=DIRECTION('ref_axis',(1.,0.,0.));
#441=DIRECTION('',(1.,0.,0.));
#442=DIRECTION('center_axis',(0.,0.,1.));
#443=DIRECTION('ref_axis',(0.,-1.,0.));
#444=DIRECTION('',(0.,1.,0.));
#445=DIRECTION('center_axis',(0.,0.,-1.));
#446=DIRECTION('ref_axis',(0.,-1.,0.));
#447=DIRECTION('',(-1.,0.,0.));
#448=DIRECTION('center_axis',(0.,2.22044604925E-16,1.));
#449=DIRECTION('ref_axis',(1.,0.,0.));
#450=DIRECTION('center_axis',(0.,-1.,0.));
#451=DIRECTION('ref_axis',(-1.,0.,0.));
#452=DIRECTION('',(0.,0.,1.));
#453=DIRECTION('center_axis',(0.,1.,0.));
#454=DIRECTION('ref_axis',(1.,0.,0.));
#455=DIRECTION('',(0.,0.,1.));
#456=DIRECTION('center_axis',(0.,0.,1.));
#457=DIRECTION('ref_axis',(0.,1.,0.));
#458=DIRECTION('',(0.,0.,1.));
#459=DIRECTION('center_axis',(0.,0.,1.));
#460=DIRECTION('ref_axis',(0.,-1.,0.));
#461=DIRECTION('',(0.,0.,1.));
#462=DIRECTION('center_axis',(-1.,0.,0.));
#463=DIRECTION('ref_axis',(0.,1.,0.));
#464=DIRECTION('center_axis',(0.,0.,-1.));
#465=DIRECTION('ref_axis',(-1.,1.22464679914735E-16,0.));
#466=DIRECTION('',(0.,0.,1.));
#467=DIRECTION('center_axis',(0.,0.,1.));
#468=DIRECTION('ref_axis',(1.,0.,0.));
#469=DIRECTION('',(0.,0.,1.));
#470=DIRECTION('center_axis',(0.,-1.,0.));
#471=DIRECTION('ref_axis',(-1.,0.,0.));
#472=DIRECTION('',(0.,0.,1.));
#473=DIRECTION('',(-1.,0.,0.));
#474=DIRECTION('center_axis',(0.,1.,0.));
#475=DIRECTION('ref_axis',(1.,0.,0.));
#476=DIRECTION('',(1.,0.,0.));
#477=DIRECTION('',(0.,0.,1.));
#478=DIRECTION('center_axis',(0.,0.,-1.));
#479=DIRECTION('ref_axis',(1.,0.,0.));
#480=DIRECTION('center_axis',(0.,0.,1.));
#481=DIRECTION('ref_axis',(1.,0.,0.));
#482=DIRECTION('center_axis',(0.,2.22044604925E-16,1.));
#483=DIRECTION('ref_axis',(1.,0.,0.));
#484=DIRECTION('',(0.939692620785898,3.91354284216373E-17,-0.342020143325698));
#485=DIRECTION('center_axis',(0.,-2.22044604925E-16,-1.));
#486=DIRECTION('ref_axis',(0.,1.,-2.22044604925E-16));
#487=DIRECTION('center_axis',(0.,0.,-1.));
#488=DIRECTION('ref_axis',(1.,0.,0.));
#489=DIRECTION('center_axis',(0.,0.,1.));
#490=DIRECTION('ref_axis',(1.,0.,0.));
#491=DIRECTION('',(0.,0.,-1.));
#492=DIRECTION('center_axis',(6.12323399573677E-17,2.22044604925E-16,1.));
#493=DIRECTION('ref_axis',(1.,0.,0.));
#494=DIRECTION('center_axis',(0.,-2.22044604925E-16,-1.));
#495=DIRECTION('ref_axis',(0.,1.,-2.22044604925E-16));
#496=DIRECTION('center_axis',(-1.22464679914735E-16,1.,-2.22044604925E-16));
#497=DIRECTION('ref_axis',(-1.,-1.22464679914735E-16,0.));
#498=DIRECTION('center_axis',(0.,0.,1.));
#499=DIRECTION('ref_axis',(1.,0.,0.));
#500=DIRECTION('center_axis',(0.,-2.22044604925E-16,-1.));
#501=DIRECTION('ref_axis',(1.,0.,0.));
#502=DIRECTION('',(-0.0261769483078682,-2.18762764188912E-16,-0.999657324975557));
#503=DIRECTION('center_axis',(0.,0.,1.));
#504=DIRECTION('ref_axis',(1.,0.,0.));
#505=CARTESIAN_POINT('',(0.,0.,0.));
#506=CARTESIAN_POINT('Origin',(-50.,50.,0.));
#507=CARTESIAN_POINT('',(-50.,45.,0.));
#508=CARTESIAN_POINT('',(-50.,-45.,0.));
#509=CARTESIAN_POINT('',(-50.,50.,0.));
#510=CARTESIAN_POINT('',(-50.,-45.,30.));
#511=CARTESIAN_POINT('',(-50.,-45.,0.));
#512=CARTESIAN_POINT('',(-50.,45.,30.));
#513=CARTESIAN_POINT('',(-50.,50.,30.));
#514=CARTESIAN_POINT('',(-50.,45.,0.));
#515=CARTESIAN_POINT('Origin',(0.,0.,0.));
#516=CARTESIAN_POINT('',(-45.,50.,0.));
#517=CARTESIAN_POINT('Origin',(-45.,45.,0.));
#518=CARTESIAN_POINT('',(45.,50.,0.));
#519=CARTESIAN_POINT('',(50.,50.,0.));
#520=CARTESIAN_POINT('',(50.,45.,0.));
#521=CARTESIAN_POINT('Origin',(45.,45.,0.));
#522=CARTESIAN_POINT('',(50.,-45.,0.));
#523=CARTESIAN_POINT('',(50.,-50.,0.));
#524=CARTESIAN_POINT('',(45.,-50.,0.));
#525=CARTESIAN_POINT('Origin',(45.,-45.,0.));
#526=CARTESIAN_POINT('',(-45.,-50.,0.));
#527=CARTESIAN_POINT('',(-50.,-50.,0.));
#528=CARTESIAN_POINT('Origin',(-45.,-45.,0.));
#529=CARTESIAN_POINT('',(-35.5,5.,0.));
#530=CARTESIAN_POINT('',(-35.5,-5.,0.));
#531=CARTESIAN_POINT('Origin',(-35.5,-3.882358224409E-20,0.));
#532=CARTESIAN_POINT('',(-34.5,-5.,0.));
#533=CARTESIAN_POINT('',(-35.5,-5.,0.));
#534=CARTESIAN_POINT('',(-34.5,5.,0.));
#535=CARTESIAN_POINT('Origin',(-34.5,-3.081816502095E-19,0.));
#536=CARTESIAN_POINT('',(-34.5,5.,0.));
#537=CARTESIAN_POINT('',(-3.373738709727,-4.13163831202669E-16,2.32897826613182E-16));
#538=CARTESIAN_POINT('Origin',(0.,0.,0.));
#539=CARTESIAN_POINT('',(30.,6.12323399573677E-16,0.));
#540=CARTESIAN_POINT('Origin',(35.,0.,0.));
#541=CARTESIAN_POINT('Origin',(-45.,45.,0.));
#542=CARTESIAN_POINT('',(-45.,50.,30.));
#543=CARTESIAN_POINT('Origin',(-45.,45.,30.));
#544=CARTESIAN_POINT('',(-45.,50.,0.));
#545=CARTESIAN_POINT('Origin',(-45.,-45.,0.));
#546=CARTESIAN_POINT('',(-45.,-50.,30.));
#547=CARTESIAN_POINT('',(-45.,-50.,0.));
#548=CARTESIAN_POINT('Origin',(-45.,-45.,30.));
#549=CARTESIAN_POINT('Origin',(0.,0.,30.));
#550=CARTESIAN_POINT('',(45.,-50.,30.));
#551=CARTESIAN_POINT('',(-50.,-50.,30.));
#552=CARTESIAN_POINT('',(50.,-45.,30.));
#553=CARTESIAN_POINT('Origin',(45.,-45.,30.));
#554=CARTESIAN_POINT('',(50.,45.,30.));
#555=CARTESIAN_POINT('',(50.,-50.,30.));
#556=CARTESIAN_POINT('',(45.,50.,30.));
#557=CARTESIAN_POINT('Origin',(45.,45.,30.));
#558=CARTESIAN_POINT('',(50.,50.,30.));
#559=CARTESIAN_POINT('',(-7.5,5.74285304839087E-15,30.));
#560=CARTESIAN_POINT('Origin',(0.,6.661338147751E-15,30.));
#561=CARTESIAN_POINT('Origin',(50.,50.,0.));
#562=CARTESIAN_POINT('',(45.,50.,0.));
#563=CARTESIAN_POINT('Origin',(-50.,-50.,0.));
#564=CARTESIAN_POINT('',(45.,-50.,0.));
#565=CARTESIAN_POINT('Origin',(45.,45.,0.));
#566=CARTESIAN_POINT('',(50.,45.,0.));
#567=CARTESIAN_POINT('Origin',(45.,-45.,0.));
#568=CARTESIAN_POINT('',(50.,-45.,0.));
#569=CARTESIAN_POINT('Origin',(50.,-50.,0.));
#570=CARTESIAN_POINT('Origin',(-35.5,-3.882358224409E-20,0.));
#571=CARTESIAN_POINT('',(-35.5,5.,6.));
#572=CARTESIAN_POINT('',(-35.5,5.,0.));
#573=CARTESIAN_POINT('',(-35.5,-5.,6.));
#574=CARTESIAN_POINT('Origin',(-35.5,-3.882358224409E-20,6.));
#575=CARTESIAN_POINT('',(-35.5,-5.,0.));
#576=CARTESIAN_POINT('Origin',(-34.5,5.,0.));
#577=CARTESIAN_POINT('',(-34.5,5.,6.));
#578=CARTESIAN_POINT('',(-34.5,5.,0.));
#579=CARTESIAN_POINT('',(-34.5,5.,6.));
#580=CARTESIAN_POINT('Origin',(-35.5,-5.,0.));
#581=CARTESIAN_POINT('',(-34.5,-5.,6.));
#582=CARTESIAN_POINT('',(-35.5,-5.,6.));
#583=CARTESIAN_POINT('',(-34.5,-5.,0.));
#584=CARTESIAN_POINT('Origin',(-34.5,-3.081816502095E-19,0.));
#585=CARTESIAN_POINT('Origin',(-34.5,-3.081816502095E-19,6.));
#586=CARTESIAN_POINT('Origin',(0.,0.,0.));
#587=CARTESIAN_POINT('',(-1.99999999999998,-3.55951662291955E-16,-0.499999999999943));
#588=CARTESIAN_POINT('',(-3.373738709727,-4.13163831202669E-16,9.17407996686961E-32));
#589=CARTESIAN_POINT('Origin',(0.,-1.110223024625E-16,-0.5));
#590=CARTESIAN_POINT('Origin',(35.,0.,0.));
#591=CARTESIAN_POINT('',(30.,6.12323399573677E-16,6.));
#592=CARTESIAN_POINT('Origin',(35.,0.,6.));
#593=CARTESIAN_POINT('',(30.,6.12323399573677E-16,0.));
#594=CARTESIAN_POINT('Origin',(0.,8.93705162769E-15,40.248902380255));
#595=CARTESIAN_POINT('',(-1.263862770662,5.97630522869383E-15,27.611946619593));
#596=CARTESIAN_POINT('Origin',(0.,6.131083778359E-15,27.611946619593));
#597=CARTESIAN_POINT('Origin',(0.,8.93705162769E-15,40.248902380255));
#598=CARTESIAN_POINT('Origin',(-3.63350391314,-1.225480159038E-16,6.));
#599=CARTESIAN_POINT('Origin',(0.,6.661338147751E-15,30.));
#600=CARTESIAN_POINT('',(-1.20132939214,6.80845856723159E-15,30.));
#601=CARTESIAN_POINT('Origin',(-3.63350391314,-1.225480159038E-16,6.));
#602=UNCERTAINTY_MEASURE_WITH_UNIT(LENGTH_MEASURE(0.01),#606,
'DISTANCE_ACCURACY_VALUE',
'Maximum model space distance between geometric entities at asserted c
onnectivities');
#603=UNCERTAINTY_MEASURE_WITH_UNIT(LENGTH_MEASURE(0.01),#606,
'DISTANCE_ACCURACY_VALUE',
'Maximum model space distance between geometric entities at asserted c
onnectivities');
#604=(
GEOMETRIC_REPRESENTATION_CONTEXT(3)
GLOBAL_UNCERTAINTY_ASSIGNED_CONTEXT((#602))
GLOBAL_UNIT_ASSIGNED_CONTEXT((#606,#608,#609))
REPRESENTATION_CONTEXT('','3D')
);
#605=(
GEOMETRIC_REPRESENTATION_CONTEXT(3)
GLOBAL_UNCERTAINTY_ASSIGNED_CONTEXT((#603))
GLOBAL_UNIT_ASSIGNED_CONTEXT((#606,#608,#609))
REPRESENTATION_CONTEXT('','3D')
);
#606=(
LENGTH_UNIT()
NAMED_UNIT(*)
SI_UNIT(.MILLI.,.METRE.)
);
#607=(
LENGTH_UNIT()
NAMED_UNIT(*)
SI_UNIT($,.METRE.)
);
#608=(
NAMED_UNIT(*)
PLANE_ANGLE_UNIT()
SI_UNIT($,.RADIAN.)
);
#609=(
NAMED_UNIT(*)
SI_UNIT($,.STERADIAN.)
SOLID_ANGLE_UNIT()
);
#610=SHAPE_DEFINITION_REPRESENTATION(#611,#612);
#611=PRODUCT_DEFINITION_SHAPE('',$,#614);
#612=SHAPE_REPRESENTATION('',(#358),#604);
#613=PRODUCT_DEFINITION_CONTEXT('part definition',#618,'design');
#614=PRODUCT_DEFINITION('mold_design-mold_half_upper',
'mold_design-mold_half_upper v1',#615,#613);
#615=PRODUCT_DEFINITION_FORMATION('',$,#620);
#616=PRODUCT_RELATED_PRODUCT_CATEGORY('mold_design-mold_half_upper v1',
'mold_design-mold_half_upper v1',(#620));
#617=APPLICATION_PROTOCOL_DEFINITION('international standard',
'automotive_design',2009,#618);
#618=APPLICATION_CONTEXT(
'Core Data for Automotive Mechanical Design Process');
#619=PRODUCT_CONTEXT('part definition',#618,'mechanical');
#620=PRODUCT('mold_design-mold_half_upper',
'mold_design-mold_half_upper v1',$,(#619));
#621=PRESENTATION_STYLE_ASSIGNMENT((#624));
#622=PRESENTATION_STYLE_ASSIGNMENT((#625));
#623=PRESENTATION_STYLE_ASSIGNMENT((#626));
#624=SURFACE_STYLE_USAGE(.BOTH.,#627);
#625=SURFACE_STYLE_USAGE(.BOTH.,#628);
#626=SURFACE_STYLE_USAGE(.BOTH.,#629);
#627=SURFACE_SIDE_STYLE('',(#630));
#628=SURFACE_SIDE_STYLE('',(#631));
#629=SURFACE_SIDE_STYLE('',(#632));
#630=SURFACE_STYLE_FILL_AREA(#633);
#631=SURFACE_STYLE_FILL_AREA(#634);
#632=SURFACE_STYLE_FILL_AREA(#635);
#633=FILL_AREA_STYLE('Steel - Satin',(#636));
#634=FILL_AREA_STYLE('Opaque(204,204,204)',(#637));
#635=FILL_AREA_STYLE('Opaque(0,0,255)',(#638));
#636=FILL_AREA_STYLE_COLOUR('Steel - Satin',#639);
#637=FILL_AREA_STYLE_COLOUR('Opaque(204,204,204)',#640);
#638=FILL_AREA_STYLE_COLOUR('Opaque(0,0,255)',#641);
#639=COLOUR_RGB('Steel - Satin',0.627450980392157,0.627450980392157,0.627450980392157);
#640=COLOUR_RGB('Opaque(204,204,204)',0.8,0.8,0.8);
#641=COLOUR_RGB('Opaque(0,0,255)',0.,0.,1.);
ENDSEC;
END-ISO-10303-21;
